Los acordes más importantes en guitarra

Todos los primeros acordes que cada guitarrista tiene que aprender

¿Estás empezando a tocar la guitarra y te preguntas cuáles son los primeros acordes?

Si ya has aprendido los primeros dos acordes en la guitarra (Em y Am), entonces es el momento de seguir con los demás.

En este artículo aprenderás cuáles son los acordes principales en la guitarra y que se suelen aprender al principio, con los cuales podrás tocar ya muchas canciones.
Ten en cuenta que si quieres aprender a tocar la guitarra desde cero y aprender todos estos acordes, puedes hacerlo con este curso GRATUITO.

Notación en inglés:

Antes de nada tienes que saber que la mayoría de acordes encontrados en internet están escritos en notación anglosajona (inglés). Abajo puedes ver la correspondencia con las notas en latín:

C (Do) D (Re) E (Mi) F (Fa) G (Sol) A (La) B (Si) 

Acordes más importantes en guitarra

Cuando decimos acordes importantes en realidad hacemos referencia a los acordes que se suelen aprender al principio, ya que tienen posiciones más fáciles. Hay que saber que todos los acordes son importantes, pero en este artículo mencionamos los acordes en posición abierta. En guitarra solemos llamar acordes en posición abierta los que se pueden tocar sin necesidad de hacer cejilla (nos referimos a la cejilla que se hace con la mano, no el aparato de metal) y éstos son más fáciles que los que se hacen con cejilla.

9 ACORDES PRINCIPALES:
Los acordes fáciles que podemos tocar con la guitarra en posición abierta son 9: Em, E, Am, A, C, G, F, D, Dm 
En esta lista no incluimos los acordes con séptimas o con tensiones añadidas.

Teniendo en cuenta que ya sabemos tocar Em y Am te enseñamos los demás acordes.
Como último consejo te recuerdo que tener una buena posición del brazo puede ayudar muchísimo a que el acorde suene bien y sobre todo, a que no te hagas daño en la muñeca.

Acorde de E (Mi mayor)


¡Recuerda!
La cuerda 1 es la cuerda más aguda de tu guitarra y la cuerda 6 es la más grave.

E (Mi mayor)
o------------------- (Cuerda 1)
o------------------- (2)
----1--------------- (3)
--------2----------- (4)
--------2-----------  (5)
o-------------------  (6)

Acorde de A (La mayor)


A (La mayor)
o------------------- (Cuerda 1)
-----2-------------- (2)
-----2-------------- (3)
-----2-------------- (4)
o-------------------  (5)
X-------------------  (6)


Acorde de C (Do mayor)


C (Do mayor)
o------------------- (Cuerda 1)
-----1-------------- (2)
o------------------- (3)
--------2----------- (4)
o------------3------  (5)
X-------------------  (6)



Acorde de G (Sol mayor)


G (Sol mayor)
-------------3------ (Cuerda 1)
o-------------------- (2)
o-------------------- (3)
o-------------------- (4)
--------2-----------  (5)
-------------3------  (6)


Acorde de D (Re mayor)


A (La mayor)
------2-------------- (Cuerda 1)
-----------3-------- (2)
------2------------- (3)
o------------------- (4)
X-------------------  (5)
X-------------------  (6)


Acorde de Dm (Re menor)


Dm (Re menor)
---1---------------- (Cuerda 1)
------------3------- (2)
-------2------------ (3)
o------------------- (4)
X-------------------  (5)
X-------------------  (6)


Acorde de F (Fa mayor)


F (Fa mayor)
X------------------- (Cuerda 1)
-----1-------------- (2)
---------2----------- (3)
-------------3------ (4)
-------------3------  (5)
X-------------------  (6)





OTROS ARTÍCULOS QUE PUEDEN INTERESARTE: